Robert Johnson

Ruler

New! Nonstop Internet Blues Radio: listen to your favorite blues music while you surf!

General Blues
Electric Blues
Rockin' Blues
Acoustic Blues
Jump Blues
Also: Blues MP3
Have you already seen the new Blues MP3 page?
Want free blues mp3 for your own site? Click here!.

Come On In My Kitchen (Take 2)

tab v 1

tab v 2

GuitarPro

soundclip


by Robert Johnson
recording of 1st of 5 sessions, November 23 1936, San Antonio, Texas
from
The Complete Recordings (CBS 467246 2 & Columbia/Legacy C2K-46222 & Columbia 4622 & Sony 64916), copyright notice

Come On In My Kitchen

 

 

Robert Johnson

 

 

 

 

D||--------------12--12--|--12------------12--12------|

B||----------------------|--12------------12--12--12--|

G||----------------------|--12------------------------|

D||----------------------|--------0----0--------------|

G||----------------------|--------0----0------0-------|

D||----------------------|----------------------------|

 

 

 

---------------------------|----------------------12--|

---------------------------|--------------------------|

--12--------0--0--0--0--0--|--0-----------------------|

---------0-----2-----1-----|--0--0--0--0--0-----------|

------0--3-----------------|--0/-7--------7----0------|

---------------------------|--0-----------------------|

 

 

 

--12------------12--12--12--|-------------------12--12--12--|

----------------------------|--12---------------------------|

----------------------------|------12-----------------------|

----------------------------|-------------0--0--------------|

--0-----0----0------0---0---|--0-------0--0--0------0-------|

----------------------------|-------------------------------|

 

 

 

---------------------12------|-------------0-----0--12--|

--12-------------12------12--|----------------1-----12--|

------12---------------------|--12------------------12--|

-----------------------------|--------------------------|

--------------0------0-------|--0-----0-------0---------|

-----------------------------|--------------------------|

 

 

 

--12-------------12--12------|-------------------|

--12-------------12--12------|-------------------|

--12---------------------12--|--7\---------------|

-----------------------------|-------------------|

--------0--0--0--------------|-------------------|

--------------0--------------|-------------------|

 

 

 

--12--12--12-------------------|-------------------------|

--12--12--12-------------------|-------------------------|

--------------12\-7----12--12--|-------------------------|

-------------------------------|------5----5--3--0-------|

-------------------------------|--------------------3----|

-------------------------------|-------------------------|

 

 

 

-----------5---------------|--5--5----------------||

---------------------------|----------------------||

------------------------0--|----------------------||

---------------------------|----------------------||

--0-----0-------0----0-----|--0-----0----0--------||

-----3---------------------|----------------------||

[ Home Page ]












Click Here!



Click Here!

 

(Trying out this banner exchange service)