Robert Johnson

Ruler

New! Nonstop Internet Blues Radio: listen to your favorite blues music while you surf!

General Blues
Electric Blues
Rockin' Blues
Acoustic Blues
Jump Blues
Also: Blues MP3
Have you already seen the new Blues MP3 page?
Want free blues mp3 for your own site? Click here!.

If I Had Possession Over Judgment Day

lyrics

GuitarPro

soundclip


by Robert Johnson
recording of 3rd of 5 sessions, November 27 1936, San Antonio, Texas

from The Complete Recordings (CBS 467246 2 & Columbia/Legacy C2K-46222 & Columbia 4622 & Sony 64916), copyright notice

If I Had Possession Over Judgment Day

R. Johnson

 

D||--12--12--12--12--12--12--12----12\---------|

B||--12--12--12--12--12--12--12----12\---------|

G||-----------------------------------------0--|

D||--------------------------------------------|

G||--------------------------------------------|

D||--------------------------------------2-----|

 

 

 

--------------------------------0--|-----5--------------------|

--------------------------------0--|--------------------------|

-----0--0--0--0--0--0--0--0--x--0--|--------------------------|

--3--------2--------1--------0--x--|--------x--x--x--x--x--x--|

-----------------------------0-----|--0-----0--0--0--0--0--0--|

--3--------2--------1--------------|--2-----------------------|

 

 

 

--5--5--5--5--5--5--5------|-----5--5--5\-3~-------|

--5--5--5--5--5--5--5--0-0-|--0--5--5--5\-3~-------|

-----------------------0-0-|--0--------------------|

-----------------------0-0-|--0--------------------|

-----------------------x-x-|--0--------------------|

---------------------------|-----------------------|

 

 

 

-----------------------------|--------3--0-----------------|

------------------0--------0-|--------3--0-------------0-0-|

--------3--0------0------0-0-|-----0------------0------0-0-|

---------------------2/4-----|---------------0--0--2/4-----|

--0--0---------0-------------|--0------------0-------------|

-------------2---------------|-------------2---------------|

 

 

 

-----0-----0-0--------------------------|--------------------------|

-----0--3--0-0-0---------------------5--|--5--5--5--5--5--5--5--5--|

--------3------0--0------0-----------5--|--5--5--5--5--5--5--5--5--|

--0------------0--0--2/4-0-----------5--|--5--5--5--5--5--5--5--5--|

--0-------------------------0--0--0-----|--------------------------|

----------------------------------------|--------------------------|

 

 

 

-------------------|--------2\-0-----------------|

--5~---------------|-----0--2\-0------0------0-0-|

--5~---------------|-----0------------0------0-0-|

--5~---------------|------------------0--2/4-----|

-------------------|--0--------------------------|

-------------------|-------------2-0-------------|

 

 

 

----------------------------------------|--------------------------|

-----0--3--3--------------0-------------|--------------------------|

-----0--3--3--0---------0-0-------------|--7--7--7--7--7--7--7-----|

--------------------2/4-----------------|--7--7--7--7--7--7--7--0--|

--0--------------0----------0--0--0--0--|-----------------------0--|

--------------x-------------------------|--------------------------|

 

 

 

---------------------------|-----------------------------|

-------------------------x-|---------------------------0-|

--5--5--5--5--5--5--5----x-|-----0--3--0------0------0-0-|

--5--5--5--5--5--5--5--0---|---------------------2/4-----|

-----------------------0---|--0------------0-------------|

---------------------------|-------------2---------------|

 

 

 

-----------0----------------|---------------------------0------------12--||

-----------0-0-----------0--|--------3--3---------------0-0----------12--||

-----0--3--0-0----0------0--|-----0--3--3--0------------0-0----0---------||

------------------0--2/4----|-----0--------0--------2/4--------0--0------||

--0------------0------------|--0-----------------0----------0-----0------||

----------------------------|-----------------2--------------------------||

[ Home Page ]












Click Here!



Click Here!

 

(Trying out this banner exchange service)