Robert Johnson

Ruler

New! Nonstop Internet Blues Radio: listen to your favorite blues music while you surf!

General Blues
Electric Blues
Rockin' Blues
Acoustic Blues
Jump Blues
Also: Blues MP3
Have you already seen the new Blues MP3 page?
Want free blues mp3 for your own site? Click here!.

When You Got A Good Friend (Take 2)

soundclip

lyrics

ChordPro

chord

GuitarPro


by Robert Johnson
recording of 1st of 5 sessions, November 23 1936, San Antonio, Texas
from
The Complete Recordings (CBS 467246 2 & Columbia/Legacy C2K-46222 & Columbia 4622 & Sony 64916), copyright notice

When You Got A Good Friend

Robert Johnson

 

E||--------------12--12--|--12--12--12--12--12--12------12--12--12--|

B||----------------------|--------------------------12--------------|

G||----------------------|------------------------------------------|

D||----------------------|--12----------12--12--11----------11--11--|

A||----------------------|------------------------------------------|

E||----------------------|------------------------------------------|

 

 

 

--12------12--12------12------12------|--12------12--12--12--12--12--12-----|

------12----------12------12------12--|--12--12--------------------------0--|

--------------------------------------|----------------------------------0--|

--10----------10--10--9-------9-------|--12--12--12--12--11--11--11--10-----|

--------------------------------------|-------------------------------------|

--------------------------------------|-------------------------------------|

 

 

 

------3-2------------2---------------|--0--------------------|

----2------------------0-------------|-----------------------|

----------2-----2--------2-----------|--------------------0--|

--2-------2--x--1----------1-1--1----|-----------------------|

--0-------0--x--2------------2--2----|--2----4----2----4-----|

----------0------------------2-------|--0----0----0----0--0--|

 

 

 

--0-----------------------|--0-------------------------|

--------------------------|----------------------------|

-----------------------0--|----------------------0--0--|

--2-----4--4--5--5--4-----|----------------------------|

--0--0--0--0--0--0--0--0--|--2-----4----2--2--4--------|

--------------------------|--0--0--0----0--0--0--------|

 

 

 

-----0-----------------------|--0-----------------------|

-----------------------------|--------------------------|

--0-----------------------0--|--------------------------|

-----------------------------|--2--2--4--4--5--5--4--5--|

--2-----2--4--4--2--2--4-----|--0--0--0--0--0--0--0--0--|

--0-----0--0--0--0--0--0-----|--------------------------|

 

 

 

--0--0-----------------------|--0----------------------|

-----------------------------|-------------------------|

-----------------------------|-------------------------|

--2-----2--4--4--5--5--4--5--|--2--2--4--4--5--5--4----|

--0-----0--0--0--0--0--0--0--|--0--0--0--0--0--0--0----|

-----------------------------|-------------------------|

 

 

 

-----0--------------------------|-----0----------------0--------|

--------------------------------|------------------------0------|

--0-----------------------0--0--|--0-----------------------0----|

--------------------------------|-------------------------------|

--2-----2--4--4--2--2--4--------|--2-----2--4--4--2----------4--|

--0-----0--0--0--0--0--0--------|--0-----0--0--0--0----------0--|

 

 

 

----------------------|--7--7--7--7--7--0--0--0--|-------------0--0--0--0--0--|

--0----0----0----0----|--8b-8b-8b-8b-8b-0--2--0--|----------3-----2-----------|

--2----2----2----2----|--------------------------|-------4--------3-----2--0--|

--1----1----1----1----|--------------------------|--2-------------------------|

--2----2----2----2----|--------------------------|--2-------------------------|

----------------------|--------------------------|--0-------------------------|

 

 

 

---------------------------||

-----0--0-----0--0---------||

--1--------0---------------||

--------1--------1----1----||

--------2--------2----2----||

--0------------------------||

[ Home Page ]












Click Here!



Click Here!

 

(Trying out this banner exchange service)